Google

And justice for all - Metallica

Intro: (clean)
----------------------------------------------
----------------------------------------------
.---------------------------------------------
.-6-7-9---7-6h7p6-4-5-5-4-7-4-2-3-5---3-2h3p2-
--7-----7---------5-----5---5-3-----3---------
--0-------------------------------------------
(x 5)
----------------------------
---------------------------- 3rd and 4th times
-----------------------2---. play this with distortion
-0-2-2-0-2-0-0-2-2-0-2---3-. I can't remember how Gtr. 2 goes
-2-----2---2-1-----1-----1-- 5th time play all distorted
----------------------------
Riff 1:
--------------------------------------------------------
-.------------------------------------------------------
-3----.-.----.-.-.----.-.-.-.--5-3-2---3-2-----2--------
-3----8-7----8-7-6----8-7-6-5--5-3-2-5-3-2-5-3-2-5-3-2--
-1----8-7----8-7-6----8-7-6-5--------5-----5-3---5-3-2--
------6-5----6-5-4----6-5-4-3---------------------------
---------------------------------
---------------------------------
--2------------------------------
--2--5--3--2----5-3-2---2--------
-----5--3--2----5-3-2-5-2-5-3-2--
----------------------5---5-3-2--
Riff 2 (x 4)
-------------------------------------------------------------------
-------------------------------------------------------------------
--------------------------------.---------------------------------.
-2------------------------(2)---.-(2)-------------------------(2)-.
-2------------------------(2)-----(2)-------------------------(2)--
-0------------------------(0)-----(0)-------------------------(0)--
Riff 3: (x 4)
------------------------------------------------
------------------------------------------------
-.-.----.-.------------------.-.----------------
-8-8-7--8-8-7---------------8-8-7---------------
-8-8-7--8-8-7----5h7-7-5----8-8-7----5h7-7-5----
-6-6-5--6-6-5--0---------7--6-6-5--0---------7--
Riff 4:
----------------------------------------------------------
----------------------------------------------------------
-.-.----.-.---------------2---------------------2---------
-8-8-7--8-8-7--2----------2----------2----------2---------
-8-8-7--8-8-7--2----------0----------2----------0---------
-6-6-5--6-6-5--0---------------------0--------------------
Riff 3 (x 2)
Riff 5:
-------------------------------------------------
-------------------------------------------------
-.-.----.-.------.----.--------------.----.------
-8-8-7--5-5-4----2--x-2-2-------3----2--x-2--2---
-8-8-7--5-5-4--.-2--x-2-2---.-.-3--.-2--x-2--2---
-6-6-5--3-3-2--0-0--x-0-0---0-0-1--0-0--x-0--0---
---------------------------------------------------------------
---------------------------------------------------------------
-.-.----.-.------.----.--------------.----.------.-.----.-.----
-8-8-7--8-8-7----2--x-2-2-------3----2--x-2--2---8-8-7--8-8-8\-
-8-8-7--8-8-7--.-2--x-2-2---.-.-3--.-2--x-2--2---8-8-7--8-8-8\-
-6-6-5--6-6-5--0-0--x-0-0---0-0-1--0-0--x-0--0---6-6-5--6-6-6\-
Verse 1
=======
Riff 6: (x 4)
-------------------------------------------------
-------------------------------------------------
--------.-------------------.------.-.----.-.----
---2--x-2-2-------3----2--x-2--2---8-8-7--8-8-7--
-.-2--x-2-2---.-.-3--.-2--x-2--2---8-8-7--8-8-7--
-0-0--x-0-0---0-0-1--0-0--x-0--0---6-6-5--6-6-5--
Fill 1: ??
-----------------------------
-----------------------------
-----------------------------
-----------------------------
-----------------------------
-----------------------------
Riff 7: (x 3)
-------------------------------------------------------------------
-------------------------------------------------------------------
.-----------------------------.--------------0h5h7-----------------
.-3-------------4\3---4/5-4/5-.-3-----------------0h5h7------------
--3-------------4\3---4/5-4/5---3----------------------0h5h7-0h2h3-
--1-1-1-1-1-1-1-2\1-0-2/3-2/3---1-1-1-1-1-1-1----------------------
(x 3)
-------------------------------------------------------------------
-------------------------------------------------------------------
.-----------------------------.--------------0h5h7-----------------
.-3-------------4\3---4/5-4/5-.-3-----------------0h5h7------------
--3-------------4\3---4/5-4/5---3----------------------0h5h7-0h2h3-
--1-1-1-1-1-1-1-2\1-0-2/3-2/3---1-1-1-1-1-1-1----------------------
-------------------------------------------------------
-------------------------------------------------------
-0h5h7-------------------------------------------------
------0h5h7------------4-2--------------4\3---4/5-4/5--
-----------0h5h7-0h2h3-4-2--------------4\3---4/5-4/5--
-----------------------2-0--0-0-0-0-0-0-2\1-0-2/3-2/3--
Chorus
======
Riff 8:
-------------------------------------------------
-------------------------------------------------
--2----4----5------------------------------------
--2----4----5----4-2--------------4\3---4/5-4/5--
--0----2----3----4-2--------------4\3---4/5-4/5--
-----------------2-0--0-0-0-0-0-0-2\1-0-2/3-2/3--
-------------------------------------------------------------------
-------------------------------------------------------------------
-2----4------------------------------------2----4----0----5--------
-2----4----4-2--------------4\3---4/5-4/5--2----4----0----5----2---
-0----2----4-2--------------4\3---4/5-4/5--0----2---------3----2---
-----------2-0--0-0-0-0-0-0-2\1-0-2/3-2/3------------3---------0---
Riff 3 (x 2)
Riff 5
Verse
Chorus
Riff 3 (x 2)
Riff 1
Riff 2
Solo
====
Riff 7
Riff 6 (x ?)
Fill 2: ??
------------------------------------------
------------------------------------------
------------------------------------------
------------------------------------------
------------------------------------------
------------------------------------------
Riff 6 (x 3)
--------------------------------------------------------------------
--------------------------------------------------------------------
--------------------------------------------------------------------
-8-8-7--8-8-7--7-7-6--7-7-6--6-6-5--6-6-5--5-5-4--5-5-4--3-4-4-4-4--
-8-8-7--8-8-7--7-7-6--7-7-6--6-6-5--6-6-5--5-5-4--5-5-4--3-4-4-4-4--
-6-6-5--6-6-5--5-5-4--5-5-4--4-4-3--4-4-3--3-3-2--3-3-2--1-2-2-2-2--
Intro (x 5) w/distortion
(x 3)
-------------------------------------------------------------------
-------------------------------------------------------------------
------.-.---.-----.-.---.-----.-.---.-----.-.---.-.-----.-.---.---.
--6---6-6-6-6-4---4-4-4-4-2---2-2-2-2-0---0-0-0-0-.-0---0-0-0-0---.
--7---7-7-7-7-5---5-5-5-5-3---3-3-3-3-2---2-2-2-2---1---1-1-1-1----
-------------------------------------------------------------------
(x 2)
-----------------------------------------------
-----------------------------------------------
--------------------.-------------------------.
--2------------(2)--.-(2)-----------------(2)-.
--2------------(2)----(2)-----------------(2)--
--0------------(0)----(0)-----------------(0)--
Riff 3 (x 2)
Fill 3:
--------------
--------------
-.-.----.-.---
-8-8-7--2-2-3-
-8-8-7--2-2-3-
-6-6-5--0-0-1-
Verse
Chorus
Riff 4 (repeat last bar)
Riff 8 (last bar only)
Riff 4
---------------------------------------------
---------------------------------------------
-7--------5--------------------------.-.-.---
-7--------5--------7--------5--------5-4-2---
-5--------3--------7--------5--------5-4-2---
-------------------5--------3--------3-2-0---
------------------------------------
------------------------------------
----------5-----------------.-.-.---
-5--------5--------7--------5-4-2---
-5--------3--------7--------5-4-2---
-3-----------------5--------3-2-0---
------------------------------------
------------------------------------
----------.-.-.-------------.-.-.---
-5--------5-4-2-------------5-4-2---
-5--------5-4-2-------------5-4-2---
-3--------3-2-0-------------3-2-0---

Seguidores de Acordes para ti

Algunas clases de guitarra

Loading...

Sign by Danasoft - Myspace Layouts and Signs

¿Cual es para ustedes la mejor marca de guitarras?

¿Cual es el mejor fabricante de armonicas?